"Qwerty" Video Clips, Other New Live Footage

Discussion in 'News' started by Mark, Aug 14, 2006.

Thread Status:
Not open for further replies.
  1. Anya

    Anya Lost LPA Super VIP

    Joined:
    Aug 20, 2003
    Messages:
    8,492
    Likes Received:
    0



    I'm starting to like them all over again because of this lol.

    The song sounds wonderful, I can't wait to hear it in higher quality.
     
  2. Tomi

    Tomi   LPA Addict

    Joined:
    Mar 10, 2004
    Messages:
    16,514
    Likes Received:
    0



    I can't make anything out in that recording? oO


    And everyone, before you judge Brad and Phoenix's playing, make sure you've listened to the whole thing first before you say that they've stepped up. I'm sure they have (they better have, or I'll be pissed, actually. =p) but it's not a good idea to judge off a 20s clip. ;)
     
  3. Mark

    Mark Canadian Beauty LPA Administrator

    Joined:
    Jul 14, 2002
    Messages:
    24,862
    Likes Received:
    388



    Yeah, the chorus could be "Numb" powerchords. :lol:
     
  4. The_Rising_Tied

    The_Rising_Tied Well-Known Member

    Joined:
    May 3, 2006
    Messages:
    320
    Likes Received:
    0



    the chorus guitars sounds like a regular linkin park song....just like 2 notes lol but wtv thats all i can hear
     
  5. thesungoesdown

    thesungoesdown It's like I'm paranoid..

    Joined:
    Dec 9, 2005
    Messages:
    316
    Likes Received:
    23



    LP IS BACK!!!!
     
  6. Shell Shock

    Shell Shock Active Member

    Joined:
    Jun 24, 2006
    Messages:
    30
    Likes Received:
    0



    Here's what i think the guitar riff is

    Drop Db (drop d down 1/2 step)

    |---------------------------------------------------------|
    |---------------------------------------------------------|
    |---7-----------9/7--7----------------------------------|
    |-7-0--7-0-----x-x--0----------------------------------|
    |-0-0--0-0-----7/5--0-/5h6p5--5h6p5-5h6p5-[5]\3-|
    |-0-0--0-0----------------------------------------------|*

    and then during the verse to go with mike rapping
    |---------------------------------------------|
    |---------------------------------------------|
    |---------------------------------------------|
    |--0-0--5-5-[5]-5h6p5-5/6---3h5\6-------|
    |--0-0--5-5-----5h6p5-x-x---3h5\6--------|
    |--0-0--5-5-----5h6p5-5/6---3h5\6--------|*

    * this is an estimate, this is not the real thing

    so their you go, if you got a guitar play that until some new shit, but its an estimate*

    i have a theory that this song may be called "Why Do You Lie", or "Why Do I Lie"
     
    Last edited: Aug 15, 2006
  7. 越南

    越南 Well-Known Member

    Joined:
    Mar 3, 2004
    Messages:
    859
    Likes Received:
    0



    wow mike was awesome in reading my eyes
     
  8. ~MolesterSheep~

    ~MolesterSheep~ Member

    Joined:
    Apr 5, 2006
    Messages:
    7
    Likes Received:
    0



    me too ^^ xDD
     
  9. Derek

    Derek LPAssociation.com Administrator LPA Administrator

    Joined:
    Jul 13, 2002
    Messages:
    41,875
    Likes Received:
    2,339



    Reading My Eyes redone is making me want to hear it on the album.

    I hope the next LP album is a mixture. Not all serious songs but some simply like Step Up/Reading My Eyes/High Voltage and you get the drift.
     
  10. Chris Luke

    Chris Luke LPA Super Member LPA Super Member

    Joined:
    May 15, 2004
    Messages:
    8,208
    Likes Received:
    0



    Hey hey, LP sounds better than they did at Live 8. I'm excited for the new album.
     
  11. Luke

    Luke Mind Your Manners. LPA Addicted VIP

    Joined:
    Jun 23, 2004
    Messages:
    15,206
    Likes Received:
    107



    Agreed.
     
  12. Joe

    Joe I'm tried LPA Administrator

    Joined:
    Mar 20, 2004
    Messages:
    18,899
    Likes Received:
    922



    I can't help but laugh at the people who think that "Qwerty" is the actual name of the song.
     
  13. Luke

    Luke Mind Your Manners. LPA Addicted VIP

    Joined:
    Jun 23, 2004
    Messages:
    15,206
    Likes Received:
    107



    I could just imagine it now:

    ''New to kerrang this week:

    They're back and heavier than ever...nu-metal giants Linkin Park return with a newer, heavier outift. Scheduled to headline this years download festival, here are the LA gang with 'Qwerty', their first single off thier new album scheduled for release in early 2007"

    That's the kind of bullshit Kerrang would say on 'loaded' :lol:
     
  14. Bboighst48

    Bboighst48 Well-Known Member

    Joined:
    Jan 23, 2005
    Messages:
    49
    Likes Received:
    0



    im really hoping brad steps his game up with the guitar on the upcoming album...almost every lp song up to now has been simple to play....i wanna see some sick stuff this time around.. i want something hard to learn! lol
     
  15. Tomi

    Tomi   LPA Addict

    Joined:
    Mar 10, 2004
    Messages:
    16,514
    Likes Received:
    0



    Brad? It's Phoenix that needs to step up. His playing in the last albums was soo fucking simple. He needs to look up to people like Flea or Les Claypool. 2 fucking bass gods right there.
     
  16. Astat

    Astat LPA Super Member LPA Super Member

    Joined:
    May 3, 2004
    Messages:
    4,130
    Likes Received:
    319



    That's what it said on the setlist...

    As for the guitar, try something like this:

    Code:
    D#|-----------------------------------------|
    A#|-----------------------------------------|
    F#|-----------------------------------------|
    C#|-----------------------------------------|
    G#|-----------------------------------------|
    C#|-0-12-13-0-12-13-0-12-13-0-12-13---------|
    
    D#|-------------------------------------------|
    A#|-------------------------------------------|
    F#|-------------------------------------------|
    C#|-------------------------------------------|
    G#|-------------------------------------------|
    C#|-0-12-13-0-12-13-0-12-13-0-12-13--12-10-12-|
    
    D#|-----------------------------------------|
    A#|-----------------------------------------|
    F#|-----------------------------------------|
    C#|-----------------------------------------|
    G#|-----------------------------------------|
    C#|-0-12-13-0-12-13-0-12-13-0-12-13---------|
    
    D#|-------------------------------------------|
    A#|-------------------------------------------|
    F#|-------------------------------------------|
    C#|-------------------------------------------|
    G#|-------------------------------------------|
    C#|-0-12-13-0-12-13-0-12-13-0-12-13--15-13-12-|
    
     
    Last edited by a moderator: Aug 15, 2006
  17. Nick

    Nick Great Job! LPA Super VIP

    Joined:
    Apr 19, 2005
    Messages:
    8,563
    Likes Received:
    0



    DANG that new song qwerty sounds tight! now my patience for the album just dropped alot lol
     
  18. scytheX

    scytheX Member

    Joined:
    Jul 17, 2006
    Messages:
    9
    Likes Received:
    0



    man im sad to admit it but the song kinda sux...too rappy for me
     
  19. Mark

    Mark Canadian Beauty LPA Administrator

    Joined:
    Jul 14, 2002
    Messages:
    24,862
    Likes Received:
    388



    ...This is Linkin Park. They rap.

    Yay for judging a song as "too rappy" from a 20 second clip.
     
  20. Joe

    Joe I'm tried LPA Administrator

    Joined:
    Mar 20, 2004
    Messages:
    18,899
    Likes Received:
    922



    :lol: So true.

    It's a working title. It's only there because the band probably don't have a name for the song yet and they need a title for it to go by. A lot of bands have working titles that make no sense for work in progress and just because it's listed as "Qwerty" on the set list doesn't mean it will be named that once everything is finalized. It's obviously a working title and I'm just failing to realize why everybody thinks it's the actual name of the song.
     
Thread Status:
Not open for further replies.

Share This Page