Rebellion Guitar Tab

Discussion in 'Linkin Park Chat' started by Justin V., Jun 5, 2014.

  1. #1
    Justin V.

    Justin V. Professional Lurker

    Joined:
    Jan 6, 2004
    Messages:
    1,142
    Likes Received:
    6



    Here's my tab for Rebellion. It's not a hard song to play but you need three things: A guitar with strings that can handle Drop C, excellent palm muting skills and great control over your alternate picking. I apologize for the formatting, my tabbing program is terrible at that. Rhythm is first, lead is tabbed after the rhythm

    Tuning = Drop C

    Legend
    h - hammer on/pull off
    s - slide
    PM - palm mute

    RHYTHM GUITAR

    00:07-00:25
    PM--------------------------------------------------
    ----------------------------------------------------|
    ----------------------------------------------------|
    ----------------------------------------------------|
    --13-12-12-13-12-12-13-12-12-13-12-12-13-12-13-12---|
    --13-12-12-13-12-12-13-12-12-13-12-12-13-12-13-12---|
    --13-12-12-13-12-12-13-12-12-13-12-12-13-12-13-12---|

    PM--------------------------------------------------
    ----------------------------------------------------|
    ----------------------------------------------------|
    ----------------------------------------------------|
    --13-12-12-13-12-12-13-12-12-13-12-12-13-12-13-12---|
    --13-12-12-13-12-12-13-12-12-13-12-12-13-12-13-12---|
    --13-12-12-13-12-12-13-12-12-13-12-12-13-12-13-12---|

    PM--------------------------------------------------
    ----------------------------------------------------|
    ----------------------------------------------------|
    ----------------------------------------------------|
    --13-12-12-13-12-12-13-12-12-13-12-12-13-12-13-12---|
    --13-12-12-13-12-12-13-12-12-13-12-12-13-12-13-12---|
    --13-12-12-13-12-12-13-12-12-13-12-12-13-12-13-12---|

    PM--------------------------------------------------
    ----------------------------------------------------|
    ----------------------------------------------------|
    ----------------------------------------------------|
    ----------------------------------------------------|
    ----------------------------------------------------|
    --12-12-12-11-11-11-8--8--8--7--7--7--5--3--0-------|
    x2

    PM--------------------------------------------------
    ----------------------------------------------------|
    ----------------------------------------------------|
    ----------------------------------------------------|
    ----------------------------------------------------|
    ----------------------------------------------------|
    --12-12-12-11-11-11-8--8--8--7--7--7--5--3--0-------|

    ----------------------------------------------------|
    ----------------------------------------------------|
    ----------------------------------------------------|
    --12-12-12-11-11-11-8--8--8--7--7--7--5--3--0-------|
    --12-12-12-11-11-11-8--8--8--7--7--7--5--3--0-------|
    --12-12-12-11-11-11-8--8--8--7--7--7--5--3--0-------|

    00:25-00:47
    ----------------------------------------------------|
    ----------------------------------------------------|
    ----------------------------------------------------|
    ----------------------------------------------------|
    ----------------------------------------------------|
    --2h-0--------0-----0--0--2h-0--------0-----0--0----|

    ----------------------------------------------------|
    ----------------------------------------------------|
    --------------------------7-----7-----7-------------|
    --------------------------8-----8-----8-------------|
    --------------------------8-----8-----8-------------|
    --2h-0--------0-----0--0--------------------0--0----|
    x6

    00:48-01:09
    PM--------------------------------------------------
    ----------------------------------------------------|
    ----------------------------------------------------|
    ----------------------------------------------------|
    ----------------------------------------------------|
    ----------------------------------------------------|
    --13-12-12-12-12-12-12-12-13-12-12-12-12-12-12-12---|

    PM--------------------------------------------------
    ----------------------------------------------------|
    ----------------------------------------------------|
    ----------------------------------------------------|
    ----------------------------------------------------|
    ----------------------------------------------------|
    --13-12-12-12-12-12-12-12-3--3--3--3--8--8--8--8----|
    x4

    ----------------------------------------------------|
    ----------------------------------------------------|
    ----------------------------------------------------|
    ----------------------------------------------------|
    ----------------------------------------------------|
    --13-12-12-12-12-12-12-12-12-12-12-12-12-12-12-12---|

    (3s, 8s are palm muted still)
    ----------------------------------------------------|
    ----------------------------------------------------|
    ----------------------------------------------------|
    ----------------------------------------------------|
    ----------------------------------------------------|
    --12-12-12-12-12-12-12-12-3--3--3--3--8--8--8--8----|

    ----------------------------------------------------|
    ----------------------------------------------------|
    ----------------------------------------------------|
    ----------------------------------------------------|
    ----------------------------------------------------|
    --13-12-12-12-12-12-12-12-12-12-12-12-12-12-12-12---|

    ----------------------------------------------------|
    ----------------------------------------------------|
    ----------------------------------------------------|
    ----------------------------------------------------|
    ----------------------------------------------------|
    --12-12-12-12-12-12-12-12-12-12-12-12-12-0----------|

    01:09-01:23
    ----------------------------|----------------------------|
    ----------------------------|----------------------------|
    ----------------------------|----------------------------|
    --10----------------10-7----|--5-----------------5--7----|
    --10----------------10-7----|--5-----------------5--7----|
    --10----------------10-7----|--5-----------------5--7----|

    ----------------------------|----------------------------|
    ----------------------------|----------------------------|
    ----------------------------|----------------------------|
    --8-----------------8--7----|--3-----------------3--0----|
    --8-----------------8--7----|--3-----------------3--0----|
    --8-----------------8--7----|--3-----------------3--0----|
    x2

    01:24-01:30
    ----------------------------------------------------|
    ----------------------------------------------------|
    ----------------------------------------------------|
    ----------------------------------------------------|
    ----------------------------------------------------|
    --2h-0--------0-----0--0--2h-0--------0-----0--0----|

    ----------------------------------------------------|
    ----------------------------------------------------|
    --------------------------7-----7-----7-------------|
    --------------------------8-----8-----8-------------|
    --------------------------8-----8-----8-------------|
    --2h-0--------0-----0--0--------------------0--0----|
    x2

    01:31-01:55
    PM--------------------------------------------------
    ----------------------------------------------------|
    ----------------------------------------------------|
    ----------------------------------------------------|
    ----------------------------------------------------|
    ----------------------------------------------------|
    --13-12-12-12-12-12-12-12-13-12-12-12-12-12-12-12---|

    PM--------------------------------------------------
    ----------------------------------------------------|
    ----------------------------------------------------|
    ----------------------------------------------------|
    ----------------------------------------------------|
    ----------------------------------------------------|
    --13-12-12-12-12-12-12-12-3--3--3--3--8--8--8--8----|
    x4

    ----------------------------------------------------|
    ----------------------------------------------------|
    ----------------------------------------------------|
    ----------------------------------------------------|
    ----------------------------------------------------|
    --13-12-12-12-12-12-12-12-12-12-12-12-12-12-12-12---|

    (3s, 8s are palm muted still)
    ----------------------------------------------------|
    ----------------------------------------------------|
    ----------------------------------------------------|
    ----------------------------------------------------|
    ----------------------------------------------------|
    --12-12-12-12-12-12-12-12-3--3--3--3--8--8--8--8----|

    ----------------------------------------------------|
    ----------------------------------------------------|
    ----------------------------------------------------|
    ----------------------------------------------------|
    ----------------------------------------------------|
    --13-12-12-12-12-12-12-12-12-12-12-12-12-12-12-12---|

    ----------------------------------------------------|
    ----------------------------------------------------|
    ----------------------------------------------------|
    ----------------------------------------------------|
    ----------------------------------------------------|
    --12-12-12-12-12-12-12-12-12-12-12-12-12-0----------|

    01:56-02:09
    ----------------------------|----------------------------|
    ----------------------------|----------------------------|
    ----------------------------|----------------------------|
    --10----------------10-7----|--5-----------------5--7----|
    --10----------------10-7----|--5-----------------5--7----|
    --10----------------10-7----|--5-----------------5--7----|

    ----------------------------|----------------------------|
    ----------------------------|----------------------------|
    ----------------------------|----------------------------|
    --8-----------------8--7----|--3-----------------3--0----|
    --8-----------------8--7----|--3-----------------3--0----|
    --8-----------------8--7----|--3-----------------3--0----|
    x2

    02:10-02:25
    ----------------------------------------------------|
    ----------------------------------------------------|
    ----------------------------------------------------|
    ----------------------------------------------------|
    ----------------------------------------------------|
    --2h-0--------0-----0--0--2h-0--------0-----0--0----|

    ----------------------------------------------------|
    ----------------------------------------------------|
    --------------------------7-----7-----7-------------|
    --------------------------8-----8-----8-------------|
    --------------------------8-----8-----8-------------|
    --2h-0--------0-----0--0--------------------0--0----|
    x4

    02:25-02:40
    PM--------------------------------------------------
    ----------------------------------------------------|
    ----------------------------------------------------|
    ----------------------------------------------------|
    --13-12-12-13-12-12-13-12-12-13-12-12-13-12-13-12---|
    --13-12-12-13-12-12-13-12-12-13-12-12-13-12-13-12---|
    --13-12-12-13-12-12-13-12-12-13-12-12-13-12-13-12---|
    x8

    02:41-03:01
    ----------------------------------------------------|
    ----------------------------------------------------|
    ----------------------------------------------------|
    --1--0--0--1--0--0--1--0--0--1--0--0--1-------------|
    --1--0--0--1--0--0--1--0--0--1--0--0--1-------------|
    --1--0--0--1--0--0--1--0--0--1--0--0--1-------------|

    ----------------------------------------------------|
    ----------------------------------------------------|
    ----------------------------------------------------|
    --1--0--0--1--0--0--1--0--0--1--0--0--1-------------|
    --1--0--0--1--0--0--1--0--0--1--0--0--1-------------|
    --1--0--0--1--0--0--1--0--0--1--0--0--1-------------|

    ----------------------------------------------------|
    ----------------------------------------------------|
    ----------------------------------------------------|
    --1--0--0--1--0--0--1--0--0--1--0--0--1-------------|
    --1--0--0--1--0--0--1--0--0--1--0--0--1-------------|
    --1--0--0--1--0--0--1--0--0--1--0--0--1-------------|

    PM--------------------------------------------------
    ----------------------------------------------------|
    ----------------------------------------------------|
    ----------------------------------------------------|
    --4--4--4--5--5--5--7--7--7--8--8--8--11-11-11-12s--|
    --4--4--4--5--5--5--7--7--7--8--8--8--11-11-11-12s--|
    --4--4--4--5--5--5--7--7--7--8--8--8--11-11-11-12s--|
    x2

    PM--------------------------------------------------
    ----------------------------------------------------|
    ----------------------------------------------------|
    ----------------------------------------------------|
    --4--4--4--5--5--5--7--7--7--8--8--8--11-11-11-12s--|
    --4--4--4--5--5--5--7--7--7--8--8--8--11-11-11-12s--|
    --4--4--4--5--5--5--7--7--7--8--8--8--11-11-11-12s--|
    x3

    03:01-03:31
    ----------------------------|----------------------------|
    ----------------------------|----------------------------|
    ----------------------------|----------------------------|
    --10----------------10-7----|--5-----------------5--7----|
    --10----------------10-7----|--5-----------------5--7----|
    --10----------------10-7----|--5-----------------5--7----|

    ----------------------------|----------------------------|
    ----------------------------|----------------------------|
    ----------------------------|----------------------------|
    --8-----------------8--7----|--3-----------------3--0----|
    --8-----------------8--7----|--3-----------------3--0----|
    --8-----------------8--7----|--3-----------------3--0----|
    x4

    03:32-End
    ----------------------------------------------------|
    ----------------------------------------------------|
    ----------------------------------------------------|
    ----------------------------------------------------|
    ----------------------------------------------------|
    --2h-0--------0-----0--0--2h-0--------0-----0--0----|

    ----------------------------------------------------|
    ----------------------------------------------------|
    --------------------------7-----7-----7-------------|
    --------------------------8-----8-----8-------------|
    --------------------------8-----8-----8-------------|
    --2h-0--------0-----0--0--------------------0--0----|
    x3

    ----------------------------------------------------|
    ----------------------------------------------------|
    ----------------------------------------------------|
    ----------------------------------------------------|
    ----------------------------------------------------|
    --2h-0--------0-----0--0--2h-0--------0-----0--0----|

    PM--------------------------------------------
    ----------------------------------------------------||
    ----------------------------------------------------||
    ----------------------------------------------------||
    --1--0--0--1--0--0--1--0--0--1--0--0--1--0--1-------||
    --1--0--0--1--0--0--1--0--0--1--0--0--1--0--1-------||
    --1--0--0--1--0--0--1--0--0--1--0--0--1--0--1-------||

    LEAD GUITAR

    Tuning = Drop C
    Legend
    ~ - vibrato

    00:31-00:46, 02:09-02:24 & 3:29-End
    ----------------------------|
    ----------------------------|
    -----------------------5----|
    --------------------7-------|
    ----------------------------|
    ----------------------------|

    ----------------------------------------------------|
    ----------------------------------------------------|
    --7-----------7--------9--7-----5-----------5-------|
    --------------------------------------7-------------|
    ----------------------------------------------------|
    ----------------------------------------------------|

    ----------------------------|----------------------------|
    ----------------------------|----------------------------|
    --7~----7~----7~-------5----|--7-----7--9--10----12------|
    --------------------7-------|----------------------------|
    ----------------------------|----------------------------|
    ----------------------------|----------------------------|

    ----------------------------|
    ----------------------------|
    --10~---10~---10~------5----|
    --------------------7-------|
    ----------------------------|
    ----------------------------|

    ----------------------------------------------------|
    ----------------------------------------------------|
    --7-----------7--------9--7-----5-----------5-------|
    --------------------------------------7-------------|
    ----------------------------------------------------|
    ----------------------------------------------------|

    ----------------------------|----------------------------|----------------|
    ----------------------------|----------------------------|----------------|
    --7~----7~----7~-------5----|--7-----7--9--10----12------|--14~14~14~14~--|
    --------------------7-------|----------------------------|----------------|
    ----------------------------|----------------------------|----------------|
    ----------------------------|----------------------------|----------------|

    01:24-01:32 3:29-03:
    ----------------------------|
    ----------------------------|
    -----------------------5----|
    --------------------7-------|
    ----------------------------|
    ----------------------------|

    ----------------------------------------------------|
    ----------------------------------------------------|
    --7-----------7--------9--7-----5-----------5-------|
    --------------------------------------7-------------|
    ----------------------------------------------------|
    ----------------------------------------------------|

    ----------------------------|----------------------------|----------------|
    ----------------------------|----------------------------|----------------|
    --7~----7~----7~-------5----|--7-----7--9--10----12------|--14~14~14~14~--|
    --------------------7-------|----------------------------|----------------|
    ----------------------------|----------------------------|----------------|
    ----------------------------|----------------------------|----------------|
     
    Last edited: Jun 5, 2014
  2. #2
    AkirraKrylon

    AkirraKrylon LPA VIP LPA VIP

    Joined:
    Jul 8, 2010
    Messages:
    822
    Likes Received:
    56



    Gonna try this out when I get home. Thanks!
     
  3. #3
    Justin V.

    Justin V. Professional Lurker

    Joined:
    Jan 6, 2004
    Messages:
    1,142
    Likes Received:
    6



    No problem! It kind of messed up the formatting a bit but you should be able to tell what parts are palm muted and what parts aren't.
     
  4. #4
    SeLDfC

    SeLDfC Well-Known Member

    Joined:
    May 17, 2014
    Messages:
    181
    Likes Received:
    1



    Thank you man I'm going to learn this for sure!!! :D
     
  5. #5
    Astat

    Astat LPA Super Member LPA Super Member

    Joined:
    May 3, 2004
    Messages:
    4,130
    Likes Received:
    318



    Seems relatively accurate, I don't typically keep a guitar in Drop C tuning so I'm going to have to tinker around a bit to figure this out. I'll probably end up tuning the low B on my 7 string up to a C and transcribing the root notes, then filling everything else in accordingly.

    I know the harmony part that accompanies the lead guitar is done on a synth, but I think there's another guitar that plays the same thing along with the synth. One other correction I hear off the top of my head is that there are open C5 chords in between the sustained chords in the chorus while the position shifts are taking place. Not sure about those 8-8-7 chords either, those sound like regular G#5 powerchords at the 8th fret to me.
     
  6. #6
    Justin V.

    Justin V. Professional Lurker

    Joined:
    Jan 6, 2004
    Messages:
    1,142
    Likes Received:
    6



    I figured the harmony part was a synth and I'm not to really tab out synths in a straight guitar tab. My guitar has jazz strings, so medium thickness, and they held up to Drop C, just a little bit of fret rattle higher up. If you have light strings then I can see you not wanting to tune that low.

    Personally I just don't hear the 10th fret on the D string. The note that jumped out at me was the higher note, 7 on G, which lead me to switch it to that chord. I'd like to hear your analyze after you look at it, but I don't the overtones that would created by the G#5 when you raise that octave up two steps on the D string.

    Thanks for your comments! I learned Wastelands today so that should be up soon. I really haven't touched Until It's Gone. I won't do Guilty All The Same since you took the time to do it and format all those guitar parts (which I was dreading). I do have a few corrections I'd like to throw your way on the GATS tab though to see if you agree.
     
  7. #7
    Astat

    Astat LPA Super Member LPA Super Member

    Joined:
    May 3, 2004
    Messages:
    4,130
    Likes Received:
    318



    Yeah, I haven't done my typical analysis with headphones/various stereo spectrum filters to isolate different parts with Rebellion yet so I'm just going off a quick analysis with some standard "karaoke track" preset stuff.

    I have the other 3 released songs all tabbed now, and I've made several rounds of corrections to GATS since the initial version was posted. If you've got anything for the other 3, let me know. I'm pretty confident in just about everything in those songs at this point, but it's still early in the game when it comes to having a lot of live videos to look at for comparison's sake.
     
  8. #8
    rcm034

    rcm034 Well-Known Member

    Joined:
    Jul 23, 2010
    Messages:
    255
    Likes Received:
    2



    A 10 on the D string wouldn't do anything of consequence, but adding Ab on 8th fret of lower C string would. That Ab has the C on the F string (7th fret) as one of it's strong overtones, and in fact it would be the first overtone that wouldn't be played on another string. Since Ab Major is the actual chord there, your brain would want to fill it in.

    Note for technical pplz: I know that note would actually be added an octave higher in a strict model of the harmonic series, but distortion adds tones at multiples of frequencies that are present and multiples of differences between frequencies (eg 300hz and 400hz together into harmonic distortion gives 100,200, etc hz out, as well as 600,800,1200,1500,1600 etc). There is some really cool math that goes into this, as well as some shenanigans from your ear, brain, the shape and materials of the speaker, the shape and materials of the mic transducer and housing, and even the cables and pre amps. Their use of tape to record adds even more variables. The fact that the tone stands out in one place more than another may be as simple as the arrangement of other instruments changing or even the microphone being re placed between takes on sections, or even the pick stroke. Distortion turns power chords into dominant 7 chords with a wash of other mess, which is part of their strength.

    Tl:dr if it is an 8/8/8 power chord on bottom strings then the major third above the top note is one of the dominant overtones present in the output of the amp/cab. It's just part of the mesh of sounds when you are in the room playing, but EQ, established key, and arrangement can bring it out.

    Source: electrical engineer
     
  9. #9
    Justin V.

    Justin V. Professional Lurker

    Joined:
    Jan 6, 2004
    Messages:
    1,142
    Likes Received:
    6



    Listening back 8-8-8-7 on the first four strings could definitely be right. I just kind of suck at that chord and it sounded fine without the lower string. I think most of us are in agreement that its not just a straight one finger power-chord. LP loves to throw in those odd chords like the part before the bridge on Wastelands:

    |-------------------------------------------------------------------------------------------------|
    |-------------------------------------------------------------------------------------------------|
    |-------------------------------------------------------------------------------------------------|
    |-2-----2-----2-----0--2--3-----3-----3-----3-----7-----7-----7-----7-----0--2--0--2--3-----0-----|
    |-2-----2-----2-----0--2--3-----3-----3-----3-----5-----5-----5-----5-----0--2--0--2--3-----0-----|
    |-2-----2-----2-----0--2--3-----3-----3-----3-----5-----5-----5-----5-----0--2--0--2--3-----0-----|

    It's easy to pick up on those odd chords since it's something Brad has thrown in a lot (Lying from you comes to mind with the 5-5-7 also)


    And I did some close scrutiny on your tabs Astat and I (of course) agree with them 100% now. Some of the quibbles I had on GATS can be attributed to tabbing a bit too fast and thinking some overtones were actual notes (like on the tapping part and the un-palm muted part before the bridge-rap riff).
     

Share This Page