PDA

View Full Version : Whered You Go (BBB) And Right Now Tab



Nick
04-07-2007, 06:09 PM
hey guys, i was wondering if anybody out there had a Right Now Guitar Tab, or the BBB Remix version of Whered You Go, im asking because i listened to both songs last night, listening to the guitar in them, and it sounded cool.

Will
04-07-2007, 06:22 PM
I'm not sure about the "BBB" remix, but this is the tab for the original "Where'd You Go":


e|---------------------------------------------------------------|
B|-9---9---9---9---7---7---7---7---9---9---9---9---7---7---7---7-|
G|---9---9---9---9---9---9---9---9---9---9---9---9---9---9---9---|
D|---------------------------------------------------------------|
A|---------------------------------------------------------------|
D|---------------------------------------------------------------|

Play it clean.

Nick
04-07-2007, 09:23 PM
that sounds right, now im looking for right now

Colonel Sanders
04-08-2007, 12:48 PM
e|---------------------------------------------------------------|
B|----9----9--7---9--12----14-14-12---12-14-9----------------|
G|-9----9-------9--------9-------------9-------------------------|
D|---------------------------------------------------------------|
A|---------------------------------------------------------------|
D|---------------------------------------------------------------|

i think that the BBBremix.